行きたい日付からパパッと検索!航空券の最安値が見つかる!

Osaka partenza
Osaka(Kansai) partenza

Kuala Lumpur andata
Kuala Lumpur arrivo

KUL partenza  (Kansai) andata

I prezzi possono variare in funzione della data di imbarco. Ti preghiamo di premere la data sul calendario per selezionare una data di imbarco.

Departure Date

2024/5
Dom. Lun. Mar. Mer. Gio. Ven. Sab.
1------2------3------4------
5------6------7------8------9------10------11------
12------13------14------15------16------17------18------
19------20------21------22------23------24------25------
263132726628242292633024231242
Seleziona Data di Ritorno   Modifica Data di Partenza

Data di Ritorno

2024/5
Dom.Lun.Mar.Mer.Gio.Ven.Sab.
1------2------3------4------
5------6------7------8------9------10------11------
12------13------14------15------16------17------18------
19------20------21------22------23------24------25------
26------27------28------29------30------31------
  Seleziona la Data di Partenza

Valuta:euro nella letturaOttenere una tassaRe-acquisizione

Departure Date
Data di Ritorno
importo totale(Andata e Ritorno/economia)

Tariffe che vengono visualizzati, c'è un caso in cui i risultati della ricerca effettivi differiscano

  • Osaka partenza -Kuala Lumpur andata
    dell'aeroplano Tempo di volo Vedi sotto

    6 Ore 50 Minuti
  • Osaka partenza -Kuala Lumpur arrivo
    Numero di compagnie aeree Vedi sotto

    33
ステータス:
メッセージ1
メッセージ2
メッセージ3
メッセージ4
メッセージ5
メッセージ6
メッセージ7
メッセージ8
メッセージ9
メッセージ10
メッセージ11
メッセージ12
メッセージ13
メッセージ14
$(function() { $('.header_service_menu li').css('width', '50%'); });