行きたい日付からパパッと検索!航空券の最安値が見つかる!

Toronto partenza
Toronto Pearson partenza

Victoria (Canada) andata
Victoria arrivo

YYJ partenza  Pearson andata

I prezzi possono variare in funzione della data di imbarco. Ti preghiamo di premere la data sul calendario per selezionare una data di imbarco.

Departure Date

2024/2
Dom. Lun. Mar. Mer. Gio. Ven. Sab.
1------2------3------
4------5------6------7------8------9------10------
11------12------13------14------15------16------17------
18------19------20------21------22------23Search24Search
25Search26Search27Search2851329Search
Seleziona Data di Ritorno   Modifica Data di Partenza

Data di Ritorno

2024/2
Dom.Lun.Mar.Mer.Gio.Ven.Sab.
1------2------3------
4------5------6------7------8------9------10------
11------12------13------14------15------16------17------
18------19------20------21------22------23------24------
25------26------27------28------29------
  Seleziona la Data di Partenza

Valuta:euro nella letturaOttenere una tassaRe-acquisizione

Departure Date
Data di Ritorno
importo totale(Andata e Ritorno/economia)

Tariffe che vengono visualizzati, c'è un caso in cui i risultati della ricerca effettivi differiscano

  • Pearson partenza -YYJ arrivo

    febbraio Il prezzo più basso Vedi sotto

    EUR513


    La compagnia aerea con questo importo del volo è West Jet.


    Imposta il calendario per questo mese.
  • Pearson partenza -YYJ arrivo

    Marzo Il prezzo più basso Vedi sotto -----
  • Pearson partenza -YYJ arrivo

    aprile Il prezzo più basso Vedi sotto -----
  • Pearson partenza -YYJ arrivo

    Maggio Il prezzo più basso Vedi sotto -----
  • Pearson partenza -YYJ arrivo

    giugno Il prezzo più basso Vedi sotto -----
  • Toronto partenza -Victoria (Canada) andata
    dell'aeroplano Tempo di volo Vedi sotto

    5 Ore 21 Minuti
  • Toronto partenza -Victoria (Canada) arrivo
    Numero di compagnie aeree Vedi sotto

    3
ステータス:
メッセージ1
メッセージ2
メッセージ3
メッセージ4
メッセージ5
メッセージ6
メッセージ7
メッセージ8
メッセージ9
メッセージ10
メッセージ11
メッセージ12
メッセージ13
メッセージ14