行きたい日付からパパッと検索!航空券の最安値が見つかる!

Milano partenza
Milano Linate partenza

Tokyo andata
Tokyo (Narita) arrivo

Tokyo (Narita) partenza  Linate andata

I prezzi possono variare in funzione della data di imbarco. Ti preghiamo di premere la data sul calendario per selezionare una data di imbarco.

Departure Date

2022/5
Dom. Lun. Mar. Mer. Gio. Ven. Sab.
1------2------3------4------5------6------7------
8------9------10------11------12------13------14------
15------16------17------18------19------20------21------
22------23------24------25------26Search27Search28Search
29Search30Search31Search
Seleziona Data di Ritorno   Modifica Data di Partenza

Data di Ritorno

2022/5
Dom.Lun.Mar.Mer.Gio.Ven.Sab.
1------2------3------4------5------6------7------
8------9------10------11------12------13------14------
15------16------17------18------19------20------21------
22------23------24------25------26------27------28------
29------30------31------
  Seleziona la Data di Partenza

Valuta:euro nella letturaOttenere una tassaRe-acquisizione

Departure Date
Data di Ritorno
importo totale(Andata e ritorno/economia)

Tariffe che vengono visualizzati, c'è un caso in cui i risultati della ricerca effettivi differiscano

  • Linate partenza -Tokyo (Narita) arrivo

    Maggio Il prezzo più basso Vedi sotto -----
  • Linate partenza -Tokyo (Narita) arrivo

    giugno Il prezzo più basso Vedi sotto

    EUR885


    La compagnia aerea con questo importo del volo è Japan Airlines.


    Imposta il calendario per questo mese.
  • Milano partenza -Tokyo andata
    dell'aeroplano Tempo di volo Vedi sotto

    ?>13Ore20Minuti
  • Milano partenza -Tokyo arrivo
    Numero di compagnie aeree Vedi sotto

    ?>16
ステータス:
メッセージ1
メッセージ2
メッセージ3
メッセージ4
メッセージ5
メッセージ6
メッセージ7
メッセージ8
メッセージ9
メッセージ10
メッセージ11
メッセージ12
メッセージ13
メッセージ14