行きたい日付からパパッと検索!航空券の最安値が見つかる!

Osaka partenza
Osaka(Kansai) partenza

Daegu andata
Daegu arrivo

TAE partenza  (Kansai) andata

I prezzi possono variare in funzione della data di imbarco. Ti preghiamo di premere la data sul calendario per selezionare una data di imbarco.

Departure Date

2020/11
Dom. Lun. Mar. Mer. Gio. Ven. Sab.
1------2------3------4------5------6------7------
8------9------10------11------12------13------14------
15------16------17------18------19------20------21------
22------23------24------25Search26Search271,07128Search
2973530Search
Si prega di selezionare un percorso di ritorno data di partenza   Cambiare la data di partenza verso l'esterno

Return Date

2020/11
Dom.Lun.Mar.Mer.Gio.Ven.Sab.
1------2------3------4------5------6------7------
8------9------10------11------12------13------14------
15------16------17------18------19------20------21------
22------23------24------25------26------27------28------
29------30------
  Si prega di selezionare un percorso in avanti la data di partenza

Valuta:euro nella letturaOttenere una tassaRe-acquisizione

Departure Date
Return Date
importo totale(Andata e ritorno/economia)

Tariffe che vengono visualizzati, c'è un caso in cui i risultati della ricerca effettivi differiscano

  • Osaka partenza -Daegu andata
    dell'aeroplano Tempo di volo Vedi sotto

    4Ore54Minuti
  • Osaka partenza -Daegu arrivo
    Numero di compagnie aeree Vedi sotto

    17

Biglietti aerei economici e biglietti aerei per (Kansai) partenza -TAE arrivo sono skyticket!

ステータス:
メッセージ1
メッセージ2
メッセージ3
メッセージ4
メッセージ5
メッセージ6
メッセージ7
メッセージ8
メッセージ9
メッセージ10
メッセージ11
メッセージ12
メッセージ13
メッセージ14