行きたい日付からパパッと検索!航空券の最安値が見つかる!

Sapporo partenza
Sapporo(Chitose) partenza

Seoul andata
Incheon arrivo

Incheon partenza  (Chitose) andata

I prezzi possono variare in funzione della data di imbarco. Ti preghiamo di premere la data sul calendario per selezionare una data di imbarco.

Departure Date

2021/7
Dom. Lun. Mar. Mer. Gio. Ven. Sab.
1------2------3------
4------5------6------7------8------9------10------
11------12------13------14------15------16------17------
18------19------20------21------22------23------24------
25------26------27898281,0702989830Search31475
Seleziona Data di Ritorno   Modifica Data di Partenza

Data di Ritorno

2021/7
Dom.Lun.Mar.Mer.Gio.Ven.Sab.
1------2------3------
4------5------6------7------8------9------10------
11------12------13------14------15------16------17------
18------19------20------21------22------23------24------
25------26------27------28------29------30------31------
  Seleziona la Data di Partenza

Valuta:euro nella letturaOttenere una tassaRe-acquisizione

Departure Date
Data di Ritorno
importo totale(Andata e ritorno/economia)

Tariffe che vengono visualizzati, c'è un caso in cui i risultati della ricerca effettivi differiscano

  • Sapporo partenza -Seoul andata
    dell'aeroplano Tempo di volo Vedi sotto

    3Ore00Minuti
  • Sapporo partenza -Seoul arrivo
    Numero di compagnie aeree Vedi sotto

    31

Biglietti aerei economici e biglietti aerei per (Chitose) partenza -Incheon arrivo sono skyticket!

ステータス:
メッセージ1
メッセージ2
メッセージ3
メッセージ4
メッセージ5
メッセージ6
メッセージ7
メッセージ8
メッセージ9
メッセージ10
メッセージ11
メッセージ12
メッセージ13
メッセージ14